Tokio Hotel Türkiye Fan


 
AnasayfaKapıTakvimSSSAramaÜye ListesiKullanıcı GruplarıKayıt OlGiriş yap

Paylaş | 
 

 Reden Tab

Aşağa gitmek 
YazarMesaj
DieLiebeWirklichTom
THTF Yapımcı
THTF Yapımcı
avatar

Mesaj Sayısı : 325
Yaş : 22
Kayıt tarihi : 25/11/08

MesajKonu: Reden Tab   Paz Ara. 14, 2008 4:12 pm

Intro
E |---------------------------------|
H |---------------------------------|
G |------------555----------------|
D |--2222------555-5-555-----| x2
A |--0000-2222-333-5-555---|
E |-------0000-----3-333-------|

Verse
E |---------------------------------|
H |---------------------------------|
G |---------------------------------|
D |--2222------555--------------| x6
A |--0000-2222-333-5-555---|
E |-------0000-----3-333-------|

E |---------------------------------|
H |---------------------------------|
G |------------555----------------|
D |--2222------555-5-555-----| x3
A |--0000-2222-333-5-555---|
E |-------0000-----3-333-------|

E |--------------------------------|
H |--------------------------------|
G |--------------------------------|
D |-3333333333333333-----|
A |-3333333333333333-----|
E |-1111111111111111-----|

Chorus:
E |---------------------------------|
H |---------------------------------|
G |-5555--------------------------|
D |-5555---2222-777-5-555--| x5
A |-3333---2222-777-5-555--|
E |--------0000-555-3-333----|

Verse
E |--------------------------------|
H |--------------------------------|
G |--------------------------------|
D |--2222------555-------------| x6
A |--0000-2222-333-5-555--|
E |-------0000-----3-333------|

E |--------------------------------|
H |--------------------------------|
G |------------555---------------|
D |--2222------555-5-555----| x3
A |--0000-2222-333-5-555--|
E |-------0000-----3-333------|

Chorus:
E |---------------------------------|
H |---------------------------------|
G |-5555--------------------------|
D |-5555---2222-777-5-555--| x5
A |-3333---2222-777-5-555--|
E |--------0000-555-3-333----|

Bridge
E |-----------------------------|
H |-----------------------------|
G |-77777777---------------| x4
D |-77777777-77777777-|
A |-55555555-77777777-|
E |----------55555555------|

E |----------------------------|
H |----------------------------|
G |----------------------------|
D |-77777777--------------|
A |-77777777--------------|
E |-55555555--------------|

PreChorus
E |---------------------------------|
H |---------------------------------|
G |---------------------------------|
D |-5555-------------------------|
A |-3333---2222-777-5-555--|
E |--------0000-555-3-333----|

E |--------------------------------|
H |--------------------------------|
G |--------------------------------|
D |-5555--------22222222----|
A |-3333---2222-22222222--|
E |--------0000-00000000----|

Chorus:
E |---------------------------------|
H |---------------------------------|
G |-5555--------------------------|
D |-5555---2222-777-5-555--| x4
A |-3333---2222-777-5-555--|
E |--------0000-555-3-333----|

E |---------------------------------|
H |---------------------------------|
G |-5555--------------------------|
D |-5555---2222-777-5-555--| Sonuna kadar
A |-3333---2222-777-5-555--|
E |--------0000-555-3-333----|
Sayfa başına dön Aşağa gitmek
Kullanıcı profilini gör http://tokiohoteltrfan.forummum.com
 
Reden Tab
Sayfa başına dön 
1 sayfadaki 1 sayfası

Bu forumun müsaadesi var:Bu forumdaki mesajlara cevap veremezsiniz
Tokio Hotel Türkiye Fan :: Tokio Hotel Akorlar ve Tablar :: Akorlar ve Tablar-
Buraya geçin: