Tokio Hotel Türkiye Fan


 
AnasayfaKapıTakvimSSSAramaÜye ListesiKullanıcı GruplarıKayıt OlGiriş yap

Paylaş | 
 

 Scream Tab

Aşağa gitmek 
YazarMesaj
DieLiebeWirklichTom
THTF Yapımcı
THTF Yapımcı
avatar

Mesaj Sayısı : 325
Yaş : 22
Kayıt tarihi : 25/11/08

MesajKonu: Scream Tab   Paz Ara. 14, 2008 4:12 pm

Scream
E|------------------------|
B|------------------------|
G|2-----2-----------------|
D|0-----0---0-010--0------|
A|---------------3-----0--|
E|------------------------|

Intro (wersja 2):
Intro (version 2):
E|------------------------|
B|------------------------|
G|------------------------|
D|7-----7-----------------|
A|5-----5---5-565--5------|
E|---------------8-----5--|
Sayfa başına dön Aşağa gitmek
Kullanıcı profilini gör http://tokiohoteltrfan.forummum.com
 
Scream Tab
Sayfa başına dön 
1 sayfadaki 1 sayfası

Bu forumun müsaadesi var:Bu forumdaki mesajlara cevap veremezsiniz
Tokio Hotel Türkiye Fan :: Tokio Hotel Akorlar ve Tablar :: Akorlar ve Tablar-
Buraya geçin: